Title : 不见不散

  • 发布时间:2008-11-05 00:40 | 所属栏目:BEYOND吉他谱 | 投稿邮箱:87344186@163.com
  • ================================================================================
             Title : 不见不散
            Artist : Beyond
             Album : 不见不散
    ================================================================================

    the song i like most in this album is this one. note that all the
    strings are tuned down half-
    step. although there is no guitar solo in this song, it's still
    extremely hard to play...
    this song has been simplified already...

    trans. by: HoXX

      Intro

    Eb|---------0---------0--------0--------0-|-------0-------0-------0-------0-|
    Bb|------12--------12-------10-------10---|-----7-------7-------5-------5---|
    Gb|---11--------11--------9--------9------|---6-------6-------4-------4-----|
    Db|-9---------9---------7--------7--------|-4-------4-------2-------2-------|
    Ab|---------------------------------------|---------------------------------|
    Eb|---------------------------------------|---------------------------------|


      Repeat twice for intro, twice for verse

         E                                   E-5

    Eb||------------------------------------|---------------------------------|
    Bb||*-------------9---------------9-----|-----------9---------------9-----|
    Gb||----------8-9---9---------8-9---9---|-------8-9---9---------8-9---9---|
    Db||--------9---------9-----9---------9-|-----8---------8-----8---------8-|
    Ab||*-----7---------------7-------------|---7---------------7-------------|
    Eb||----0---------------0---------------|-0---------------0---------------|


       A6                                    A6/9


    Eb|-------------------------------------|----------------------------------||
    Bb|-----------7-5-7-----------7-5-7-----|-------4-5-4-----------4-5-4-----*||
    Gb|---------6-------6-------6-------6---|-----4-------4-------4-------4----||
    Db|-------7-----------7---7-----------7-|---4-----------4---4-----------4--||
    Ab|-----0---------------0---------------|-0---------------0---------------*||
    Eb|-------------------------------------|----------------------------------||


      Bridge

       C#m            D#dim        C#m

    Eb|------------4-|-------6--6-|---------4---------------4-------|
    Bb|---------5--5-|-----5----5-|-------5---5-----------5---5-----|
    Gb|-------6----6-|---6------6-|-----6-------6-------6-------6---|
    Db|-----6------6-|-5--------5-|---6-----------6---6-----------6-|
    Ab|---4--------4-|------------|-4---------------4---------------|
    Eb|--------------|------------|---------------------------------|


       F#m6                               C#m            D#dim


    Eb|-----------2----------------2-----|------------4-|-------6--6-|
    Bb|---------4---4------------4---4---|---------5--5-|-----5----5-|
    Gb|-------2-------2--------2-------2-|-------6----6-|---6------6-|
    Db|-----4---------------4------------|-----6------6-|-5--------5-|
    Ab|---4---------------4--------------|---4--------4-|------------|
    Eb|-2---------------2----------------|--------------|------------|


       C#m                               F#m6                             
    B
                                                                          
    Strumming for now on

    Eb|---------4---------------4-------|-----------2----------------2-----|------2-------|
    Bb|-------5---5-----------5---5-----|---------4----4-----------4---4---|------4-------|
    Gb|-----6-------6-------6-------6---|-------2--------2-------2-------2-|------4-------|
    Db|---6-----------6---6-----------6-|-----4----------------4-----------|------4-------|
    Ab|-4---------------4---------------|---4----------------4-------------|------2-------|
    Eb|---------------------------------|--2---------------2---------------|-----(2)------|

    Chorus

       E       C#       F#m7     B         E       C#       F#m7     B


    Eb|-0------|--4------|-2-----|--2------|-0-----|--4------|-2-----|--2------|
    Bb|-0------|--6------|-2-----|--4------|-0-----|--6------|-2-----|--4------|
    Gb|-1------|--6------|-2-----|--4------|-1-----|--6------|-2-----|--4------|
    Db|-2------|--6------|-2-----|--4------|-2-----|--6------|-2-----|--4------|
    Ab|-2------|--4------|-4-----|--2------|-2-----|--4------|-4-----|--2------|
    Eb|-0------|-(4)-----|-2-----|-(2)-----|-0-----|-(4)-----|-2-----|-(2)-----|


       E                                    E-5


    Eb|------------------------------------|---------------------------------|
    Bb|-------------9----------------9-----|-----------9---------------9-----|
    Gb|---------8-9---9----------8-9---9---|-------8-9---9---------8-9---9---|
    Db|-------9---------9------9---------9-|-----8---------8-----8---------8-|
    Ab|-----7----------------7-------------|---7---------------7-------------|
    Eb|---0---------------0----------------|-0---------------0---------------|


       A6                                 A6/9


    Eb|----------------------------------|-0----|
    Bb|-------7-5-7------------7-5-7-----|-4----|
    Gb|-----6-------6--------6-------6---|-4----|
    Db|---7-----------7---7------------7-|-4----|
    Ab|-0---------------0----------------|-0----|
    Eb|----------------------------------|------|


      Repeat verse, bridge, chorus, verse for keyboard solo, bridge

     

      Ending, strumming

       E       C#        F#m7    B


    Eb|-0-----|--4------|-2-----|--2------|
    Bb|-0-----|--6------|-2-----|--4------|
    Gb|-1-----|--6------|-2-----|--4------|
    Db|-2-----|--6------|-2-----|--4------|
    Ab|-2-----|--4------|-4-----|--2------|
    Eb|-0-----|-(4)-----|-2-----|-(2)-----|


        E       C#       F#m7     B           D9        C         B       B
                                                                     

    Eb|-0-----|--4------|-2-----|--2------|----5------|--3------|-7-----|-7-----|
    Bb|-0-----|--6------|-2-----|--4------|----5------|--5------|-7-----|-7-----|
    Gb|-1-----|--6------|-2-----|--4------|----7------|--5------|-8-----|-8-----|
    Db|-2-----|--6------|-2-----|--4------|----7------|--5------|-9-----|-9-----|
    Ab|-2-----|--4------|-4-----|--2------|----5------|--3------|-9-----|-9-----|
    Eb|-0-----|-(4)-----|-2-----|-(2)-----|---(5)-----|-(3)-----|-7-----|-7-----|

      Repeat verse twice

    |--------------Finish--------------|







  • 更多